ISO-10303-21;
HEADER;
FILE_DESCRIPTION (( 'STEP AP203' ),
    '1' );
FILE_NAME ('Q-SHPHWP-18-532.STEP',
    '2020-12-22T08:20:23',
    ( '' ),
    ( '' ),
    'SwSTEP 2.0',
    'SolidWorks 2020',
    '' );
FILE_SCHEMA (( 'CONFIG_CONTROL_DESIGN' ));
ENDSEC;

DATA;
#1 = CARTESIAN_POINT ( 'NONE',  ( -3.673940397442059375E-16, 9.000000000000000000, 0.000000000000000000 ) ) ;
#2 = CARTESIAN_POINT ( 'NONE',  ( 0.02899999999999934922, 9.000000000000000000, 0.000000000000000000 ) ) ;
#3 = PERSON ( 'UNSPECIFIED', 'UNSPECIFIED', 'UNSPECIFIED', ('UNSPECIFIED'), ('UNSPECIFIED'), ('UNSPECIFIED') ) ;
#4 = DIRECTION ( 'NONE',  ( -1.000000000000000000, 0.000000000000000000, -0.000000000000000000 ) ) ;
#5 = PERSON_AND_ORGANIZATION ( #3, #153 ) ;
#6 = MANIFOLD_SOLID_BREP ( 'Ðý×', #53 ) ;
#7 = PERSON_AND_ORGANIZATION ( #3, #153 ) ;
#8 = ADVANCED_FACE ( 'NONE', ( #124 ), #83, .F. ) ;
#9 = EDGE_CURVE ( 'NONE', #39, #141, #101, .T. ) ;
#10 = AXIS2_PLACEMENT_3D ( 'NONE', #40, #61, #158 ) ;
#11 = ORIENTED_EDGE ( 'NONE', *, *, #69, .T. ) ;
#12 = CARTESIAN_POINT ( 'NONE',  ( -7.347880794884118750E-16, 0.000000000000000000, 0.000000000000000000 ) ) ;
#13 = ORIENTED_EDGE ( 'NONE', *, *, #26, .T. ) ;
#14 = EDGE_LOOP ( 'NONE', ( #73, #95 ) ) ;
#15 = DIRECTION ( 'NONE',  ( 0.000000000000000000, 0.000000000000000000, 1.000000000000000000 ) ) ;
#16 = CALENDAR_DATE ( 2020, 22, 12 ) ;
#17 = DATE_AND_TIME ( #148, #65 ) ;
#18 = AXIS2_PLACEMENT_3D ( 'NONE', #12, #128, #81 ) ;
#19 = APPROVAL_STATUS ( 'not_yet_approved' ) ;
#20 = PERSON_AND_ORGANIZATION ( #3, #153 ) ;
#21 = PERSON_AND_ORGANIZATION_ROLE ( 'design_supplier' ) ;
#22 = APPROVAL_ROLE ( '' ) ;
#23 = CARTESIAN_POINT ( 'NONE',  ( 0.02899999999999875247, 0.000000000000000000, 9.000000000000000000 ) ) ;
#24 = LOCAL_TIME ( 16, 20, 23.00000000000000000, #90 ) ;
#25 = ORIENTED_EDGE ( 'NONE', *, *, #69, .F. ) ;
#26 = EDGE_CURVE ( 'NONE', #37, #93, #156, .T. ) ;
#27 = DIRECTION ( 'NONE',  ( -1.000000000000000000, -0.000000000000000000, -0.000000000000000000 ) ) ;
#28 = ORIENTED_EDGE ( 'NONE', *, *, #9, .T. ) ;
#29 = AXIS2_PLACEMENT_3D ( 'NONE', #56, #84, #82 ) ;
#30 = EDGE_LOOP ( 'NONE', ( #127, #11, #28, #164 ) ) ;
#31 = CC_DESIGN_PERSON_AND_ORGANIZATION_ASSIGNMENT ( #106, #48, ( #162 ) ) ;
#32 = COORDINATED_UNIVERSAL_TIME_OFFSET ( 8, 0, .AHEAD. ) ;
#33 = DATE_TIME_ROLE ( 'classification_date' ) ;
#34 = CC_DESIGN_APPROVAL ( #139, ( #113 ) ) ;
#35 = CARTESIAN_POINT ( 'NONE',  ( 0.000000000000000000, 0.000000000000000000, 0.000000000000000000 ) ) ;
#36 = PRODUCT_DEFINITION ( 'UNKNOWN', '', #113, #109 ) ;
#37 = VERTEX_POINT ( 'NONE', #151 ) ;
#38 = DIRECTION ( 'NONE',  ( -1.000000000000000000, -0.000000000000000000, -0.000000000000000000 ) ) ;
#39 = VERTEX_POINT ( 'NONE', #23 ) ;
#40 = CARTESIAN_POINT ( 'NONE',  ( -7.347880794884118750E-16, 0.000000000000000000, 0.000000000000000000 ) ) ;
#41 = ORIENTED_EDGE ( 'NONE', *, *, #9, .F. ) ;
#42 = APPROVAL_DATE_TIME ( #17, #135 ) ;
#43 = CC_DESIGN_APPROVAL ( #135, ( #36 ) ) ;
#44 = MECHANICAL_CONTEXT ( 'NONE', #45, 'mechanical' ) ;
#45 = APPLICATION_CONTEXT ( 'configuration controlled 3d designs of mechanical parts and assemblies' ) ;
#46 = COORDINATED_UNIVERSAL_TIME_OFFSET ( 8, 0, .AHEAD. ) ;
#47 = SECURITY_CLASSIFICATION_LEVEL ( 'unclassified' ) ;
#48 = PERSON_AND_ORGANIZATION_ROLE ( 'design_owner' ) ;
#49 = PRODUCT_DEFINITION_SHAPE ( 'NONE', 'NONE',  #36 ) ;
#50 = CC_DESIGN_PERSON_AND_ORGANIZATION_ASSIGNMENT ( #119, #21, ( #113 ) ) ;
#51 = DATE_AND_TIME ( #174, #24 ) ;
#52 = ADVANCED_BREP_SHAPE_REPRESENTATION ( 'Q-SHPHWP-18-532', ( #6, #68 ), #91 ) ;
#53 = CLOSED_SHELL ( 'NONE', ( #98, #122, #8, #120 ) ) ;
#54 = AXIS2_PLACEMENT_3D ( 'NONE', #2, #4, #111 ) ;
#55 = CARTESIAN_POINT ( 'NONE',  ( 0.000000000000000000, 1.102182119232617714E-15, -9.000000000000000000 ) ) ;
#56 = CARTESIAN_POINT ( 'NONE',  ( 0.02899999999999875247, 0.000000000000000000, 0.000000000000000000 ) ) ;
#57 = DIRECTION ( 'NONE',  ( 1.000000000000000000, 0.000000000000000000, 0.000000000000000000 ) ) ;
#58 = CARTESIAN_POINT ( 'NONE',  ( 0.000000000000000000, 0.000000000000000000, 9.000000000000000000 ) ) ;
#59 = DIRECTION ( 'NONE',  ( 0.000000000000000000, 0.000000000000000000, 1.000000000000000000 ) ) ;
#60 = AXIS2_PLACEMENT_3D ( 'NONE', #1, #57, #112 ) ;
#61 = DIRECTION ( 'NONE',  ( -1.000000000000000000, -0.000000000000000000, -0.000000000000000000 ) ) ;
#62 = APPROVAL_STATUS ( 'not_yet_approved' ) ;
#63 = PERSON_AND_ORGANIZATION ( #3, #153 ) ;
#64 = AXIS2_PLACEMENT_3D ( 'NONE', #143, #38, #15 ) ;
#65 = LOCAL_TIME ( 16, 20, 23.00000000000000000, #32 ) ;
#66 = PERSON_AND_ORGANIZATION_ROLE ( 'creator' ) ;
#67 = CIRCLE ( 'NONE', #10, 9.000000000000000000 ) ;
#68 = AXIS2_PLACEMENT_3D ( 'NONE', #35, #59, #88 ) ;
#69 = EDGE_CURVE ( 'NONE', #37, #39, #126, .T. ) ;
#70 = CYLINDRICAL_SURFACE ( 'NONE', #146, 9.000000000000000000 ) ;
#71 = EDGE_LOOP ( 'NONE', ( #168, #25 ) ) ;
#72 = DIRECTION ( 'NONE',  ( 0.000000000000000000, 0.000000000000000000, 1.000000000000000000 ) ) ;
#73 = ORIENTED_EDGE ( 'NONE', *, *, #94, .T. ) ;
#74 = UNCERTAINTY_MEASURE_WITH_UNIT (LENGTH_MEASURE( 1.000000000000000082E-05 ), #117, 'distance_accuracy_value', 'NONE');
#75 = CARTESIAN_POINT ( 'NONE',  ( -7.347880794884118750E-16, 1.102182119232617714E-15, -9.000000000000000000 ) ) ;
#76 = APPROVAL_STATUS ( 'not_yet_approved' ) ;
#77 = COORDINATED_UNIVERSAL_TIME_OFFSET ( 8, 0, .AHEAD. ) ;
#78 = PERSON_AND_ORGANIZATION_ROLE ( 'classification_officer' ) ;
#79 = APPLICATION_CONTEXT ( 'configuration controlled 3d designs of mechanical parts and assemblies' ) ;
#80 = LOCAL_TIME ( 16, 20, 23.00000000000000000, #46 ) ;
#81 = DIRECTION ( 'NONE',  ( 0.000000000000000000, 0.000000000000000000, 1.000000000000000000 ) ) ;
#82 = DIRECTION ( 'NONE',  ( 0.000000000000000000, 0.000000000000000000, 1.000000000000000000 ) ) ;
#83 = PLANE ( 'NONE',  #54 ) ;
#84 = DIRECTION ( 'NONE',  ( -1.000000000000000000, -0.000000000000000000, -0.000000000000000000 ) ) ;
#85 = CC_DESIGN_SECURITY_CLASSIFICATION ( #149, ( #113 ) ) ;
#86 = DIRECTION ( 'NONE',  ( -1.000000000000000000, -0.000000000000000000, -0.000000000000000000 ) ) ;
#87 = PERSON_AND_ORGANIZATION_ROLE ( 'creator' ) ;
#88 = DIRECTION ( 'NONE',  ( 1.000000000000000000, 0.000000000000000000, 0.000000000000000000 ) ) ;
#89 = PRODUCT_RELATED_PRODUCT_CATEGORY ( 'detail', '', ( #162 ) ) ;
#90 = COORDINATED_UNIVERSAL_TIME_OFFSET ( 8, 0, .AHEAD. ) ;
#91 =( GEOMETRIC_REPRESENTATION_CONTEXT ( 3 ) GLOBAL_UNCERTAINTY_ASSIGNED_CONTEXT ( ( #74 ) ) GLOBAL_UNIT_ASSIGNED_CONTEXT ( ( #117, #169, #157 ) ) REPRESENTATION_CONTEXT ( 'NONE', 'WORKASPACE' ) );
#92 = APPROVAL_PERSON_ORGANIZATION ( #150, #154, #22 ) ;
#93 = VERTEX_POINT ( 'NONE', #75 ) ;
#94 = EDGE_CURVE ( 'NONE', #141, #93, #96, .T. ) ;
#95 = ORIENTED_EDGE ( 'NONE', *, *, #167, .T. ) ;
#96 = CIRCLE ( 'NONE', #18, 9.000000000000000000 ) ;
#97 = CYLINDRICAL_SURFACE ( 'NONE', #116, 9.000000000000000000 ) ;
#98 = ADVANCED_FACE ( 'NONE', ( #136 ), #70, .T. ) ;
#99 = ORIENTED_EDGE ( 'NONE', *, *, #100, .T. ) ;
#100 = EDGE_CURVE ( 'NONE', #39, #37, #145, .T. ) ;
#101 = LINE ( 'NONE', #58, #105 ) ;
#102 = CALENDAR_DATE ( 2020, 22, 12 ) ;
#103 = PERSON_AND_ORGANIZATION ( #3, #153 ) ;
#104 = DATE_AND_TIME ( #102, #80 ) ;
#105 = VECTOR ( 'NONE', #27, 1000.000000000000000 ) ;
#106 = PERSON_AND_ORGANIZATION ( #3, #153 ) ;
#107 = CC_DESIGN_DATE_AND_TIME_ASSIGNMENT ( #51, #33, ( #149 ) ) ;
#108 = APPROVAL_PERSON_ORGANIZATION ( #5, #139, #170 ) ;
#109 = DESIGN_CONTEXT ( 'detailed design', #79, 'design' ) ;
#110 = LOCAL_TIME ( 16, 20, 23.00000000000000000, #132 ) ;
#111 = DIRECTION ( 'NONE',  ( -0.000000000000000000, 0.000000000000000000, 1.000000000000000000 ) ) ;
#112 = DIRECTION ( 'NONE',  ( 0.000000000000000000, 0.000000000000000000, -1.000000000000000000 ) ) ;
#113 = PRODUCT_DEFINITION_FORMATION_WITH_SPECIFIED_SOURCE ( 'ANY', '', #162, .NOT_KNOWN. ) ;
#114 = CARTESIAN_POINT ( 'NONE',  ( 0.000000000000000000, 0.000000000000000000, 0.000000000000000000 ) ) ;
#115 = APPLICATION_PROTOCOL_DEFINITION ( 'international standard', 'config_control_design', 1994, #45 ) ;
#116 = AXIS2_PLACEMENT_3D ( 'NONE', #140, #155, #72 ) ;
#117 =( LENGTH_UNIT ( ) NAMED_UNIT ( * ) SI_UNIT ( .MILLI., .METRE. ) );
#118 = DATE_AND_TIME ( #131, #110 ) ;
#119 = PERSON_AND_ORGANIZATION ( #3, #153 ) ;
#120 = ADVANCED_FACE ( 'NONE', ( #138 ), #123, .F. ) ;
#121 = DIRECTION ( 'NONE',  ( -1.000000000000000000, -0.000000000000000000, -0.000000000000000000 ) ) ;
#122 = ADVANCED_FACE ( 'NONE', ( #165 ), #97, .T. ) ;
#123 = PLANE ( 'NONE',  #60 ) ;
#124 = FACE_OUTER_BOUND ( 'NONE', #71, .T. ) ;
#125 = CC_DESIGN_PERSON_AND_ORGANIZATION_ASSIGNMENT ( #7, #66, ( #113 ) ) ;
#126 = CIRCLE ( 'NONE', #64, 9.000000000000000000 ) ;
#127 = ORIENTED_EDGE ( 'NONE', *, *, #26, .F. ) ;
#128 = DIRECTION ( 'NONE',  ( -1.000000000000000000, -0.000000000000000000, -0.000000000000000000 ) ) ;
#129 = DATE_TIME_ROLE ( 'creation_date' ) ;
#130 = DATE_AND_TIME ( #16, #133 ) ;
#131 = CALENDAR_DATE ( 2020, 22, 12 ) ;
#132 = COORDINATED_UNIVERSAL_TIME_OFFSET ( 8, 0, .AHEAD. ) ;
#133 = LOCAL_TIME ( 16, 20, 23.00000000000000000, #77 ) ;
#134 = APPROVAL_DATE_TIME ( #104, #139 ) ;
#135 = APPROVAL ( #76, 'UNSPECIFIED' ) ;
#136 = FACE_OUTER_BOUND ( 'NONE', #142, .T. ) ;
#137 = CC_DESIGN_APPROVAL ( #154, ( #149 ) ) ;
#138 = FACE_OUTER_BOUND ( 'NONE', #14, .T. ) ;
#139 = APPROVAL ( #62, 'UNSPECIFIED' ) ;
#140 = CARTESIAN_POINT ( 'NONE',  ( 0.000000000000000000, 0.000000000000000000, 0.000000000000000000 ) ) ;
#141 = VERTEX_POINT ( 'NONE', #166 ) ;
#142 = EDGE_LOOP ( 'NONE', ( #99, #13, #163, #41 ) ) ;
#143 = CARTESIAN_POINT ( 'NONE',  ( 0.02899999999999875247, 0.000000000000000000, 0.000000000000000000 ) ) ;
#144 = CC_DESIGN_PERSON_AND_ORGANIZATION_ASSIGNMENT ( #63, #78, ( #149 ) ) ;
#145 = CIRCLE ( 'NONE', #29, 9.000000000000000000 ) ;
#146 = AXIS2_PLACEMENT_3D ( 'NONE', #114, #121, #175 ) ;
#147 = CC_DESIGN_PERSON_AND_ORGANIZATION_ASSIGNMENT ( #103, #87, ( #36 ) ) ;
#148 = CALENDAR_DATE ( 2020, 22, 12 ) ;
#149 = SECURITY_CLASSIFICATION ( '', '', #47 ) ;
#150 = PERSON_AND_ORGANIZATION ( #3, #153 ) ;
#151 = CARTESIAN_POINT ( 'NONE',  ( 0.02899999999999875247, 1.102182119232617714E-15, -9.000000000000000000 ) ) ;
#152 = VECTOR ( 'NONE', #86, 1000.000000000000000 ) ;
#153 = ORGANIZATION ( 'UNSPECIFIED', 'UNSPECIFIED', '' ) ;
#154 = APPROVAL ( #19, 'UNSPECIFIED' ) ;
#155 = DIRECTION ( 'NONE',  ( -1.000000000000000000, -0.000000000000000000, -0.000000000000000000 ) ) ;
#156 = LINE ( 'NONE', #55, #152 ) ;
#157 =( NAMED_UNIT ( * ) SI_UNIT ( $, .STERADIAN. ) SOLID_ANGLE_UNIT ( ) );
#158 = DIRECTION ( 'NONE',  ( 0.000000000000000000, 0.000000000000000000, 1.000000000000000000 ) ) ;
#159 = CC_DESIGN_DATE_AND_TIME_ASSIGNMENT ( #130, #129, ( #36 ) ) ;
#160 = APPROVAL_PERSON_ORGANIZATION ( #20, #135, #161 ) ;
#161 = APPROVAL_ROLE ( '' ) ;
#162 = PRODUCT ( 'Q-SHPHWP-18-532', 'Q-SHPHWP-18-532', '', ( #44 ) ) ;
#163 = ORIENTED_EDGE ( 'NONE', *, *, #94, .F. ) ;
#164 = ORIENTED_EDGE ( 'NONE', *, *, #167, .F. ) ;
#165 = FACE_OUTER_BOUND ( 'NONE', #30, .T. ) ;
#166 = CARTESIAN_POINT ( 'NONE',  ( -7.347880794884118750E-16, 0.000000000000000000, 9.000000000000000000 ) ) ;
#167 = EDGE_CURVE ( 'NONE', #93, #141, #67, .T. ) ;
#168 = ORIENTED_EDGE ( 'NONE', *, *, #100, .F. ) ;
#169 =( NAMED_UNIT ( * ) PLANE_ANGLE_UNIT ( ) SI_UNIT ( $, .RADIAN. ) );
#170 = APPROVAL_ROLE ( '' ) ;
#171 = SHAPE_DEFINITION_REPRESENTATION ( #49, #52 ) ;
#172 = APPLICATION_PROTOCOL_DEFINITION ( 'international standard', 'config_control_design', 1994, #79 ) ;
#173 = APPROVAL_DATE_TIME ( #118, #154 ) ;
#174 = CALENDAR_DATE ( 2020, 22, 12 ) ;
#175 = DIRECTION ( 'NONE',  ( 0.000000000000000000, 0.000000000000000000, 1.000000000000000000 ) ) ;
ENDSEC;
END-ISO-10303-21;
